Lingus

Posted by & filed under Tabs.

Having recently seen them again at the Hammersmith Apollo I took some time to write out the bass part for Lingus.

This one was tricky, the chorus and first sax solo particularly so. I have left a couple parts out which I haven’t quite finished. If you have any comments/corrections, please use the comments section at the bottom.

Ultimate-Guitar link: http://tabs.ultimate-guitar.com/s/snarky_puppy/lingus_btab.htm

Lingus – Emin

-------------------------------------------------------------------------------
                             Lingus - Snarky Puppy
-------------------------------------------------------------------------------
Tabbed by: stanton119
E-mail: stanton1191@gmail.com
Web: http://www.richard-stanton.com

Source: https://www.youtube.com/watch?v=L_XJ_s5IsQc
Tuning: Standard
Key:    Emin
Time:   5/4 (for the most part)


Intro - keys

Verse
  1-+-&-+-2-+-&-+-3-+-&-+-4-+-&-+-5-+-&-+- 1-+-&-+-2-+-&-+-3-+-&-+-4-+-&-+-5-+-&-+-
G|----------------------------------------|----------------------------------------|
D|----------------------------------------|----------------------------------------|
A|----------------0-------0---2-----------|--------------------------------0---2---|
E|0-------0---3-------------------3-------|----------------------------------------|

  1-+-&-+-2-+-&-+-3-+-&-+-4-+-&-+-5-+-&-+- 1-+-&-+-2-+-&-+-3-+-&-+-4-+-&-+-5-+-&-+-
G|----------------------------------------|----------------------------------------|
D|----------------------------------------|----------------------------------------|
A|3-------2---0-------0---2---------------|----------------------------------------|
E|----------------3---------------3-------|0---------------------------------------|


Prechorus
  1-+-&-+-2-+-&-+-3-+-&-+-4-+-&-+-5-+-&-+- 1-+-&-+-2-+-&-+-3-+-&-+-4-+-&-+-5-+-&-+-
G|----------------------------------------|----------------------------------------|
D|------------------------------------5---|----------------------------------------|
A|--------------------5-------7-----------|--------------------5---------------5---|
E|8---------------------------------------|8---------------------------5-----------|

  1-+-&-+-2-+-&-+-3-+-&-+-4-+-&-+-5-+-&-+- 1-+-&-+-2-+-&-+-3-+-&-+-4-+-&-+-5-+-&-+-
G|------------------------------------4---|------------------------------------7-9-|
D|--------------------5-------7-----------|--------------------5-------7-----------|
A|7---------------------------------------|5---------------------------------------|
E|----------------------------------------|----------------------------------------|

  1-+-&-+-2-+-&-+-3-+-&-+-4-+-&-+-5-+-&-+- 1-+-&-+-2-+-&-+-3-+-&-+-4-+-&-+-5-+-&-+-
G|--5-------------------------------------|----------------------------------------|----
D|----5-------------------------------5---|----------------------------------------|----
A|--------------------5-------7-----------|--------------------5--------------(5)--|(7)-
E|--------8-------------------------------|8---------------------------5-----------|----


Guitar break (chorus)

Verse
1:37 - Bass break in middle
G|--------------------------------------
D|--11---------9------------------------
A|------7--10-----10--7-----------------
E|-----------------------7--5--3--5--7--

1:47:
  1-+-&-+-2-+-&-+-3-+-&-+-4-+-&-+-5-+-&-+- 1-+-&-+-2-+-&-+-3-+-&-+-4-+-&-+-5-+-&-+-
G|----------------------------------------|----------------------------------------|
D|----------------------------------------|----------------------------------------|
A|10--12--14------12--10------------------|----------------------------------------|
E|------------------------12--------------|----------------------------------------|
Verse


Prechorus x ~3
2:16 - in the second prechorus this replaces the fast fill:
E|9---|8---


Chorus
Guitar break

Bass back in with
  1-+-&-+-2-+-&-+-3-+-&-+-4-+-&-+-5-+-&-+- 1-+-&-+-2-+-&-+-3-+-&-+-4-+-&-+-5-+-&-+-
G|----------------------------------------|----------------------------------------|
D|2-------2-------2-------2-------2-------|----------------------------------------|
A|----------------------------------------|3-------3-------3-------3-------3-------|
E|----------------------------------------|----------------------------------------|

  1-+-&-+-2-+-&-+-3-+-&-+-4-+-&-+-5-+-&-+- 1-+-&-+-2-+-&-+-3-+-&-+-4-+-&-+-5-+-&-+-
G|----------------------------------------|----------------------------------------|
D|----------------------------------------|----------------------------------------|
A|----------------------------------------|----------------------------------------|
E|5-------5-------5-------5-------5-------|3-------3-------3-------1-------1-------|

  1-+-&-+-2-+-&-+-3-+-&-+-4-+-&-+-5-+-&-+- 
G|----------------------------------------|
D|----------------------------------------|
A|----------------------------------------|
E|1-------------------0-------------------|

  1-+-&-+-2-+-&-+-3-+-&-+-4-+-&-+-5-+-&-+- 1-+-&-+-2-+-&-+-3-+-&-+-4-+-&-+-5-+-&-+-
G|--------5-------------------------------|--------7-------------------------------|
D|----5-7-----5---------------------------|----7-9-----7---------------------------|
A|--------------3-------------------------|---------------5------------------------|
E|----------------------------------------|----------------------------------------|

  1-+-&-+-2-+-&-+-3-+-&-+-4-+-&-+-5-+-&-+- 1-+-&-+-2-+-&-+-3-+-&-+-4-+-&-+-5-+-&-+-
G|----------------------------------------|--------7-------------------------------|
D|--------7-------------------------------|----7-9-----9---------------------------|
A|----7-11----7-0-------------------------|---------------7------------------------|
E|----------------------------------------|----------------------------------------|


  1-+-&-+-2-+-&-+-3-+-&-+-4-+-&-+-5-+-&-+- 1-+-&-+-2-+-&-+-3-+-&-+-4-+-&-+-5-+-&-+-
G|--------5-------------------------------|----------------------------------------|
D|----5-7-----5---------------------------|--------7-------------------------------|
A|--------------3-------------------------|----7-11----7-0-------------------------|
E|----------------------------------------|----------------------------------------|

  1-+-&-+-2-+-&-+-3-+-&-+-4-+-&-+-5-+-&-+- 
G|----------------------------------------|
D|--------5-------------------------------|
A|----5-7-----5---------------------------|
E|--------------3---------1---------------|


Sax solo - similar to chorus
  1-+-&-+-2-+-&-+-3-+-&-+-4-+-&-+-5-+-&-+- 1-+-&-+-2-+-&-+-3-+-&-+-4-+-&-+-5-+-&-+-
G|----------------------------------------|--------5-------------------------------|
D|--------2-------------------------------|----5-7-----5---------------------------|
A|----2-4-----2---------------------------|--------------3-------------------------|
E|--------------0-------------------------|----------------------------------------|

  1-+-&-+-2-+-&-+-3-+-&-+-4-+-&-+-5-+-&-+- 1-+-&-+-2-+-&-+-3-+-&-+-4-+-&-+-5-+-&-+-
G|--------7-------------------------------|----------------------------------------|
D|----7-9-----7---------------------------|------5-7-------------------------------|
A|--------------5-------------------------|----7-------5---------------------------|
E|----------------------------------------|--------------5-------------------------|

  1-+-&-+-2-+-&-+-3-+-&-+-4-+-&-+-5-+-&-+- 1-+-&-+-2-+-&-+-3-+-&-+-4-+-&-+-5-+-&-+-
G|--------9-------------------------------|--------5-------------------------------|
D|----9-11----9---------------------------|----5-7-----5---------------------------|
A|--------------7-------------------------|--------------3-------------------------|
E|----------------------------------------|----------------------------------------|

  1-+-&-+-2-+-&-+-3-+-&-+-4-+-&-+-5-+-&-+- 1-+-&-+-2-+-&-+-3-+-&-+-4-+-&-+-5-+-&-+- 
G|----------------------------------------|----------------------------------------|
D|----------------------------------------|--------5-------------------------------|
A|--------7-------------------------------|----5-7-----5---------------------------|
E|----5-7-----7-5-------------------------|--------------3---------1---------------|

  1-+-&-+-2-+-&-+-3-+-&-+-4-+-&-+-5-+-&-+- 1-+-&-+-2-+-&-+-3-+-&-+-4-+-&-+-5-+-&-+-
G|--------9-------------------------------|--------5-------------------------------|
D|----9-11----9---------------------------|----5-7-----5---------------------------|
A|--------------7-------------------------|--------------3-------------------------|
E|----------------------------------------|----------------------------------------|

  1-+-&-+-2-+-&-+-3-+-&-+-4-+-&-+-5-+-&-+- 1-+-&-+-2-+-&-+-3-+-&-+-4-+-&-+-5-+-&-+-
G|--------7-------------------------------|----------------------------------------|
D|----7-9-----7---------------------------|--------7-------------------------------|
A|--------------5-------------------------|----7-11----7-0-------------------------|
E|----------------------------------------|----------------------------------------|

  1-+-&-+-2-+-&-+-3-+-&-+-4-+-&-+-5-+-&-+- 1-+-&-+-2-+-&-+-3-+-&-+-4-+-&-+-5-+-&-+-
G|--------7-------------------------------|--------5-------------------------------|
D|----7-9-----9---------------------------|----5-7-----5---------------------------|
A|---------------7------------------------|--------------3-------------------------|
E|----------------------------------------|----------------------------------------|

  1-+-&-+-2-+-&-+-3-+-&-+-4-+-&-+-5-+-&-+- 1-+-&-+-2-+-&-+-3-+-&-+-4-+-&-+-5-+-&-+- 
G|----------------------------------------|----------------------------------------|
D|--------7-------------------------------|--------5-------------------------------|
A|----7-11----7-0-------------------------|----5-7-----5---------------------------|
E|----------------------------------------|--------------3---------1---------------|

  1-+-&-+-2-+-&-+-3-+-&-+-4-+-&-+-5-+-&-+- 1-+-&-+-2-+-&-+-3-+-&-+-4-+-&-+-5-+-&-+-
G|----------------------------------------|--------5-------------------------------|
D|----------------------------------------|----5-7-----5---------------------------|
A|--------7-------------------------------|--------------3-------------------------|
E|----7-9-----7-0-------------------------|----------------------------------------|

  1-+-&-+-2-+-&-+-3-+-&-+-4-+-&-+-5-+-&-+- 1-+-&-+-2-+-&-+-3-+-&-+-4-+-&-+-5-+-&-+-
G|--------7-------------------------------|----------------------------------------|
D|----7-9-----7---------------------------|--------7-------------------------------|
A|--------------5-------------------------|----7-11----7-0-------------------------|
E|----------------------------------------|----------------------------------------|

  1-+-&-+-2-+-&-+-3-+-&-+-4-+-&-+-5-+-&-+- 1-+-&-+-2-+-&-+-3-+-&-+-4-+-&-+-5-+-&-+-
G|--------9-------------------------------|--------5-------------------------------|
D|----9-11----9---------------------------|----5-7-----5---------------------------|
A|--------------7-------------------------|--------------3-------------------------|
E|----------------------------------------|----------------------------------------|

  1-+-&-+-2-+-&-+-3-+-&-+-4-+-&-+-5-+-&-+- 1-+-&-+-2-+-&-+-3-+-&-+-4-+-&-+-5-+-&-+- 
G|--------7-------------------------------|----------------------------------------|
D|----7-9-----7---------------------------|--------5-------------------------------|
A|--------------5-------------------------|----5-7-----5---------------------------|
E|----------------------------------------|--------------3---------1---------------|




Chorus 4:00
This chorus is a bit different to the last, I've haven't fully tabbed it out but it follows:
Em   C   D  G F
Em   C   A  G F


Keys solo (crazy) 4/4 8s
Loop around the following 8 bars:
  1-+-&-+-2-+-&-+-3-+-&-+-4-+-&-+- 1-+-&-+-2-+-&-+-3-+-&-+-4-+-&-+-
G|--------------------------------|--------------------------------|
D|--------------------------------|--------------------------------|
A|--------------------------------|--------------------------------| x 2
E|0-----0---------0-----0---------|0-----0-------0-----0---0-------|

  1-+-&-+-2-+-&-+-3-+-&-+-4-+-&-+- 1-+-&-+-2-+-&-+-3-+-&-+-4-+-&-+-
G|--------------------------------|--------------------------------|
D|--------------------------------|--------------------------------|
A|3-----3---------3-----3---------|3-----3-------3-----3---3-------|
E|--------------------------------|--------------------------------|

  1-+-&-+-2-+-&-+-3-+-&-+-4-+-&-+- 1-+-&-+-2-+-&-+-3-+-&-+-4-+-&-+-
G|--------------------------------|--------------------------------|
D|--------------------------------|--------------------------------|
A|0-----0-------0-----0---0-------|--------------------------------|
E|--------------------------------|1-----1-------1-----1---1-------|


Horn solo
same as keys solo
To the end


===============================================================================