Gust of Wind

Posted by & filed under Tabs.

A lesser known song from Pharrell…

This song has a fairly simple verse riff but has an interesting rhythm to go along with it. If you have any comments/corrections, please use the comments section at the bottom.

Ultimate-Guitar link: http://tabs.ultimate-guitar.com/p/pharrell_williams/gust_of_wind_ver2_btab.htm

Gust of Wind – Fmaj

-------------------------------------------------------------------------------
                             Gust of Wind - Pharrell Williams
-------------------------------------------------------------------------------
Tabbed by: stanton119
E-mail: stanton1191@gmail.com
Web: http://www.richard-stanton.com

Source: https://www.youtube.com/watch?v=VWSRtPTmRr4
Tuning: Standard
Key:    Fmaj



Intro (0:24)
  1-+-&-+-2-+-&-+-3-+-&-+-4-+-&-+-
G|--------------------------------|
D|3-----1-3-----1-3-----1-3-----1-|
A|--------------------------------|
E|--------------------------------|


Verse x 6
  1-+-&-+-2-+-&-+-3-+-&-+-4-+-&-+- 1-+-&-+-2-+-&-+-3-+-&-+-4-+-&-+-
G|--------------------------------|--------------------------------|
D|3-------------------------------|--------3h5---3-----------------|
A|------3---------6---------------|--3---6-----------6---3---------|
E|------------------------4-------|6-----------------------1-------|

  1-+-&-+-2-+-&-+-3-+-&-+-4-+-&-+- 1-+-&-+-2-+-&-+-3-+-&-+-4-+-&-+-
G|--------------------------------|--------------------------------|
D|--------------------------------|--------------------------------|
A|--------------------------------|--------------------------------|
E|1-------1-----1-------1-----1---|1-------1-----1-------1-----1---|


Chorus
  1-+-&-+-2-+-&-+-3-+-&-+-4-+-&-+- 1-+-&-+-2-+-&-+-3-+-&-+-4-+-&-+-
G|--------------------------------|--------------------------------|
D|--------------------------------|--------------------------------|
A|8-------8-------6-------6-------|----------------------------6---|
E|--------------------------------|8-------6-------6-------6-8---8-|

  1-+-&-+-2-+-&-+-3-+-&-+-4-+-&-+- 1-+-&-+-2-+-&-+-3-+-&-+-4-+-&-+-
G|--------------------------------|------------------------1210----|
D|----------------------------6---|8-------8-----------1013----13--|
A|8-------8-------6-------6-8---8-|------------------13------------|
E|--------------------------------|--------------------------------|

  1-+-&-+-2-+-&-+-3-+-&-+-4-+-&-+- 1-+-&-+-2-+-&-+-3-+-&-+-4-+-&-+-
G|--------------------------------|--------------------------------|
D|--------------------------------|--------------------------------|
A|8-------8-------6-------6-------|--------------------6-------6---|
E|--------------------------------|8-------6-------6-8---8-6-8---8-|

  1-+-&-+-2-+-&-+-3-+-&-+-4-+-&-+- 1-+-&-+-2-+-&-+-3-+-&-+-4-+-&-+-
G|--------------------------------|--------------------12----10----|
D|----------------------------6---|8-------8-------------13----12--|
A|8-------8-------6-------6-8---8-|------------------------------13|
E|--------------------------------|--------------------------------|

Verse x 6
Chorus
Verse x 4
Verse x 2
Chorus
Verse to fade

===============================================================================