Posted by & filed under Tabs.

Another amazing song from Snarky Puppy!

There are some awesome grooves in this one… As ever this is only a basic template of the song. Some of the parts and rhythms are a bit complicated. If you have any comments/corrections, please use the comments section at the bottom.

Ultimate-Guitar link: http://tabs.ultimate-guitar.com/s/snarky_puppy/binky_btab.htm

Binky – C#min

-------------------------------------------------------------------------------
                             Binky - Snarky Puppy
-------------------------------------------------------------------------------
Tabbed by: stanton119
E-mail: stanton1191@gmail.com
Web: http://www.richard-stanton.com

Source: https://www.youtube.com/watch?v=gQ99OMlI5cg
Tuning: Standard
Key:    C#min
6/4 time

Verse
G|------------------------------------------
D|-------2-2--------------------------------
A|-4-4-------------2-2---------------------- x 3
E|------------4-4---------------------------

G|------------------------------------------
D|------------------------------------------
A|-------2-2--------------------------------
E|-3-3---------2-2--3-0---------------------

Pre chorus
bar of 7/4 + bar of 8/4
G|--------------(10)|------------------------
D|------------------|------------------------
A|-7----7--8---(8)--|7-----7--5--------------
E|------------------|------------------------

6/4
G|---------------|---------------
D|---------------|---------------
A|---------------|---------------
E|-7----7--8-----|7-----7--6-----

Post chorus
G|666666-99999------------------|     ------
D|---------------7777777--------|     ------
A|-----------------------9999999| x 2 ---4--
E|------------------------------|     ------

Verse - as normal, can be played in octaves if you like
G|-------9----------------------------------
D|--11--------6---9-------------------------
A|-----7------------------------------------ x 3
E|-9--------4---7---------------------------

G|---------4--------------------------------
D|---5-----------4--------------------------
A|-------2----------------------------------
E|-3-----------2----3-0---------------------

Sax solo - verse

Trumpet solo - Pre-chorus

Then, held notes:
G|-----------------------
D|-----------------------
A|----------------------- x 2
E|-7-----8---7----6------

G|----------------------------------------------
D|----------------------------------------------
A|---------------10-----------------------------
E|-7----8---10----------7----8-----7--6--------


Post chorus
When full band comes in:
G|------------------------------|
D|---------------7777777-4444444|
A|444444-77777------------------|
E|------------------------------|
There are several variations using lower octaves as well

End on C#

Outro (synth style effect)
These are the basic patterns:
G|---------------------------------9/11-9|---------------------|-----------|--------
D|---------------------------------------|---------------------|-----------|--------
A|-----9/11-9/11-7---12-11/12-11-9-------|------9/11-9/11-7----|-9-99-9-99-|--12--9-
E|-9-9-----------------------------------|-9-99----------------|-----------|--------

===============================================================================