Posted by & filed under Tabs.

Another classic from Incubus

Ultimate-Guitar link: http://tabs.ultimate-guitar.com/i/incubus/vitamin_ver2_btab.htm

Vitamin

-------------------------------------------------------------------------------
                             VITAMIN - Incubus
-------------------------------------------------------------------------------
Tabbed by: stanton119
E-mail: stanton1191@gmail.com
Web: http://www.richard-stanton.com

Source: https://www.youtube.com/watch?v=Fi_HnGx0t1Q
Tuning: Standard

Verse
  1-+-&-+-2-+-&-+-3-+-&-+-4-+-&-+- 
G|--------------------------------|
D|--------------------------------|
A|--------------------------------| x 8
E|0-------0-------0-----0-0---0---|

Chorus
 -&-+- 1-+-&-+-2-+-&-+-3-+-&-+-4-+-&-+- 
G-----|--------------------------------|
D-----|--------------------------------|
A-7---|7---------3/5---------------7---| x 8
E-----|----0---0---------x-0---0-------|

Post-chorus
  1-+-&-+-2-+-&-+-3-+-&-+-4-+-&-+- 
G|--------------------------------|
D|--------------------------------|
A|1-1-1-1-1-1-1-1-1-1-1-1-1-1-1-1-|
E|--------------------------------|

Verse x 10

Chorus
 -&-+- 1-+-&-+-2-+-&-+-3-+-&-+-4-+-&-+- 1-+-&-+-2-+-&-+-3-+-&-+-4-+-&-+-
G-----|--------------------------------|--------------------------------|
D-----|--------------------------------|--------------------------------|
A-7---|7---------3/5---------------5---|5---------0/2---------------7---| x 4
E-----|----0---0---------x-3---3-------|----1---1---------x-0---0-------|

Verse x 10

Chorus  x 4
Post-chorus x 2

Break

Bridge x 7
  1-+-&-+-2-+-&-+-3-+-&-+-4-+-&-+-5-+-&-+-6-+-&-+-
G|------------------------------------------------|
D|2-----------2-----------------------------------|
A|----------------3-------2-----------2-----------|
E|----------------------------------------3-------|

  1-+-&-+-2-+-&-+-3-+-&-+-4-+-&-+-5-+-&-+-6-+-&-+-
G|------------------------------------------------|
D|2-----------2-----------------------------------|
A|----------------3-------2-2-2-2-2-2-2-2-2-------|
E|------------------------------------------------|

Break

 -&-+- 1-+- .... +-&-+-12-
G-----|---- .... ------|--
D-----|---- .... ------|--
A-----|---- .... ------|--
E-0---|0--- .... --0---|0-

Chorus x 4
Intro x 4

End on:
E|0===========

===============================================================================