Posted by & filed under Tabs.

The newly released single by Incubus

Not the hardest line in the world, but some interesting rhythms (particularly with the drums) and a cool song non-the-less.

Ultimate-Guitar link: http://tabs.ultimate-guitar.com/i/incubus/absolution_calling_btab.htm

Absolution Calling

-------------------------------------------------------------------------------
                             ABSOLUTION CALLING - Incubus
-------------------------------------------------------------------------------
Tabbed by: stanton119
E-mail: stanton1191@gmail.com
Web: http://www.richard-stanton.com

Source: https://www.youtube.com/watch?v=fokXZUn6VAA
Tuning: Standard

Intro
4 bars nothing

Verse
     1-+-&-+-2-+-&-+-3-+-&-+-4-+-&-+- 1-+-&-+-2-+-&-+-3-+-&-+-4-+-&-+-
G---|--------------------------------|--------------------------------|
D---|--------------------------------|--------------------------------|
A---|--------------^-----------------|--------------^-----------------|
E-4/|9-9---9-9-9-9-9---9-9-9-9-9-7-9-|9-9---9-9-9-9-9---9-9-9-9-9-7-9-|

  1-+-&-+-2-+-&-+-3-+-&-+-4-+-&-+- 1-+-&-+-2-+-&-+-3-+-&-+-4-+-&-+-
G|--------------------------------|--------------------------------|
D|--------------------------------|--------------^-----------------|
A|--------------^-----------------|9-9---9-9-9-9-9---9-9-9-9-9-7-9-|
E|7-7---7-7-7-7-7---7-7-7-7-7-7-7-|--------------------------------|

Occassional fill:
  1-+-&-+-2-+-&-+-3-+-&-+-4-+-&-+- 1
G|--------------------------------|-
D|--------------------------------|-
A|--------------^---------9h11====|9-
E|7-7---7-7-7-7-7---7-7-7---------|-


Prechorus
  1-+-&-+-2-+-&-+-3-+-&-+-4-+-&-+- 1-+-&-+-2-+-&-+-3-+-&-+-4-+-&-+- 
G|--------------------------------|------------------13-13-13-13-13|
D|------------------11-11-11-11-11|--------------------------------|
A|--------------------------------|--------------------------------|
E|9-9-9-9-9-9-9-9-----------------|9-9-9-9-9-9-9-9-----------------|

Chorus
  1-+-&-+-2-+-&-+-3-+-&-+-4-+-&-+- 1-+-&-+-2-+-&-+-3-+-&-+-4-+-&-+-
G|--------------------------------|--------------------------------|
D|9-------------------------------|7-------------------------------|
A|--9-----------------------------|--7-----------------------------|
E|----7-------7-----7-7---7---7---|----5-------5-----5-5---5---5---|

  1-+-&-+-2-+-&-+-3-+-&-+-4-+-&-+- 1-+-&-+-2-+-&-+-3-+-&-+-4-+-&-+-
G|--------------------------------|--------------------------------|
D|--------------------------------|--------------------------------|
A|7-------------------------------|--------------------------------|
E|--7-0-------0-----0-0---0---0---|0---0-------0-----0-0---0---0---|

  1-+-&-+-2-+-&-+-3-+-&-+-4-+-&-+- 1-+-&-+-2-+-&-+-3-+-&-+-4-+-&-+-
G|--------------------------------|--------------------------------|
D|9-------------------------------|7-------------------------------|
A|--9-----------------------------|--7-----------------------------|
E|----7-------7-----7-7---7---7---|----5-------5-----5-5---5---5---|

  1-+-&-+-2-+-&-+-3-+-&-+-4-+-&-+- 1-+-&-+-2-+-&-+-3-+-&-+-4-+-&-+-
G|--------------------------------|--------------------------------|
D|--------------------------------|--------------------------------|
A|7-------------------------------|--------------------------------|
E|--7-0-------0-----0-0---2-------|3---3-------3-----3-3---3---3---|

Verse

Chorus x 2

Solo
This sounds like its played on a 5 string for the lower B, or there is an octave effect.
This is the best I could do on a 4 string. Needs plenty distortion :)

4 bar guitar break then:
G|------|------|------|-----|
D|------|------|------|-----|
A|9-----|7-----|2-----|5----|
E|7-----|5-----|0-----|3----|

G|------|------|------|-----|
D|------|------|------|-----|
A|9-----|7-----|5-----|2----|
E|7-----|5-----|3-----|0----|

G|------|------|------|-----|
D|------|------|------|-----|
A|9-----|7-----|2-----|5----|
E|7-----|5-----|0-----|3----|


Verse x 3 - different rhythmn
  1-+-&-+-2-+-&-+-3-+-&-+-4-+-&-+- 1-+-&-+-2-+-&-+-3-+-&-+-4-+-&-+-
G|--------------------------------|--------------------------------|
D|--------------------------------|--------------------------------|
A|--------------------------------|--------------------------------|
E|9-9-9-9-9-9-9-9-9-9-9-9-9-7-9-7-|9-9-9-9-9-9-9-9-9-9-9-9-9-9-7-9-|

  1-+-&-+-2-+-&-+-3-+-&-+-4-+-&-+- 1-+-&-+-2-+-&-+-3-+-&-+-4-+-&-+-
G|--------------------------------|--------------------------------|
D|--------------------------------|--------------------------------|
A|--------------------------------|--9-9-9-9-9-9-9-9-9-9-9-9-9-7-9-|
E|7-7-7-7-7-7-7-7-7-7-7-7-7-7-7-7-|7-------------------------------|

  1-+-&-+-2-+-&-+-3-+-&-+-4-+-&-+- 1-+-&-+-2-+-&-+-3-+-&-+-4-+-&-+-
G|--------------------------------|--------------------------------|
D|--------------------------------|--------------------------------|
A|--------------------------------|--------------------------------|
E|9-9-9-9-9-9-9-9-9-9-9-9-9-7-9-7-|9-9-9-9-9-9-9-9-9-9-9-9-9-9-7-9-|

  1-+-&-+-2-+-&-+-3-+-&-+-4-+-&-+- 1-+-&-+-2-+-&-+-3-+-&-+-4-+-&-+-
G|--------------------------------|--------------------------------|
D|--------------------------------|--------------------------------|
A|------------------------9h11====|9-9-9-9-9-9-9-9-9-9-9-9-7-7-7-7-|
E|7-7-7-7-7-7-7-7-7-7-7-7---------|--------------------------------|

  1-+-&-+-2-+-&-+-3-+-&-+-4-+-&-+- 1-+-&-+-2-+-&-+-3-+-&-+-4-+-&-+-
G|--------------------------------|--13----13----13----13----13----|
D|--11----11----11----11----11----|--------------------------------|
A|--------------------------------|--------------------------------|
E|9-----9-----9-----9-----9-------|9-----9-----9-----9-----9-------|


Chorus - up a tone. key change
  1-+-&-+-2-+-&-+-3-+-&-+-4-+-&-+- 1-+-&-+-2-+-&-+-3-+-&-+-4-+-&-+- 
G|--------------------------------|--------------------------------|
D|--------------------------------|--------------------------------|
A|--------------------------------|--------------------------------|
E|9-9-9-9-9-9-9-9-9-9-9-9-9-9-9-9-|7-7-7-7-7-7-7-7-7-7-7-7-7-7-7-7-|

  1-+-&-+-2-+-&-+-3-+-&-+-4-+-&-+- 1-+-&-+-2-+-&-+-3-+-&-+-4-+-&-+- 
G|--------------------------------|--------------------------------|
D|--------------------------------|--------------------------------|
A|--------------------------------|--------------------------------|
E|2-2-2-2-2-2-2-2-2-2-2-2-2-2-2-2-|2-2-2-2-2-2-2-2-2-2-2-2-2-2-2-2-|

  1-+-&-+-2-+-&-+-3-+-&-+-4-+-&-+- 1-+-&-+-2-+-&-+-3-+-&-+-4-+-&-+- 
G|--------------------------------|--------------------------------|
D|--------------------------------|--------------------------------|
A|--------------------------------|--------------------------------|
E|9-9-9-9-9-9-9-9-9-9-9-9-9-9-9-9-|7-7-7-7-7-7-7-7-7-7-7-7-7-7-7-7-|

  1-+-&-+-2-+-&-+-3-+-&-+-4-+-&-+- 1-+-&-+-2-+-&-+-3-+-&-+-4-+-&-+- 
G|--------------------------------|--------------------------------|
D|--------------------------------|--------------------------------|
A|--------------------------------|--------------------------------|
E|2-2-2-2-2-2-2-2-2-2-2-2-0-0-0-0-|5-5-5-5-5-5-5-5-5-5-5-5-5-5-5-5-|

  1-+-&-+-2-+-&-+-3-+-&-+-4-+--&--+-- 1-+-&-+-2-+-&-+-3-+-&-+-4-+--&--+-- 
G|-----------------------------------|-----------------------------------|
D|-----------------------------------|-----------------------------------|
A|-----------------------------------|------------------------9h11-11-11-|
E|9-9-9-9-9-9-9-9-9-9-9-9-9h11-11-11-|7-7-7-7-7-7-7-7-7-7-7-7------------|

  1-+-&-+-2-+-&-+-3-+-&-+-4-+-&-+- 1-+-&-+-2-+-&-+-3-+-&-+-4-+-&-+- 
G|--------------------------------|--------------------------------|
D|--------------------------------|--------------------------------|
A|9-9-9-9-9-9-9-9-9-9-9-9-9-9-9-9-|9-9-9-9-9-9-9-9-9-9-9-9-9-9-9-9-|
E|--------------------------------|--------------------------------|

  1-+-&-+-2-+-&-+-3-+-&-+-4-+-&-+- 1-+-&-+-2-+-&-+-3-+-&-+-4-+-&-+- 
G|--------------------------------|(with distortion)---------------|
D|--------------------------------|--------------------------------|
A|--------------------------------|9-9-9-9-9-9-9-9-9-9-9-9-9-9-9-9-|
E|9-9-9-9-9-9-9-9-9-9-9-9-9-9-9-9-|7-7-7-7-7-7-7-7-7-7-7-7-7-7-7-7-|

  1-+-&-+-2-+-&-+-3-+-&-+-4-+-&-+- 1-+-&-+-2-+-&-+-3-+-&-+-4-+-&-+- 
G|--------------------------------|--------------------------------|
D|--------------------------------|--------------------------------|
A|--------------------------------|--------------------------------|
E|2-2-2-2-2-2-2-2-2-2-2-2-0-0-0-0-|5===============================|

===============================================================================