Posted by & filed under Tabs.

Some classic funk from Earth, Wind and Fire!

The verse has some extra bass parts higher up which I have missed out. If you have any comments/corrections, please use the comments section at the bottom.

Ultimate-Guitar link: http://tabs.ultimate-guitar.com/e/earth_wind_and_fire/getaway_btab.htm

Getaway – Fmin

-------------------------------------------------------------------------------
                             GETAWAY - Earth, Wind and Fire
-------------------------------------------------------------------------------
Tabbed by: stanton119
E-mail: stanton1191@gmail.com
Web: http://www.richard-stanton.com

Source: https://www.youtube.com/watch?v=vE2zx4lr-h8
Tuning: Standard

Intro
    1-+-&-+-2-+-&-+-3-+-&-+-4-+-&-+- 1-+-&-+-2-+-&-+-3-+-&-+-4-+-&-+-
G--|----------------1-0---------0---|--------------------------------|
D--|1-3-----------------3-1---1---3-|----------------1-0-----0-------|
A-3|------------------------3-------|--------------------3-1---3-1---|
E--|--------------------------------|------------------------------4-|

  1-+-&-+-2-+-&-+-3-+-&-+-4-+-&-+- 1-+-&-+-2-+-&-+-3-+-&-+-4-+-&-+-
G|--------------------------------|--------------1-----3---4-5-----|
D|----------------------------1---|--2-----3-----------------------|
A|--------1-------2-----3---------|--------------------------------|
E|--------------------------------|--------------------------------|

Chorus
Part 1.
  1-+-&-+-2-+-&-+-3-+-&-+-4-+-&-+- 1-+-&-+-2-+-&-+-3-+-&-+-4-+-&-+-
G|--------------------------------|--------------------------------|
D|--------------------------------|--------------------------------| x2
A|--------------------------------|----------------1-----3---------|
E|(1)-----------1-1-------------1-|----------------------------1---|
Part 2.
  1-+-&-+-2-+-&-+-3-+-&-+-4-+-&-+- 1-+-&-+-2-+-&-+-3-+-&-+-4-+-&-+-
G|--------------------------------|--------------------------------|
D|--------------------------------|--------------------------------|
A|--------------------------------|----------------1-----3-----4---|
E|(1)-----------1-1-------------1-|--------------------------------|

  1-+-&-+-2-+-&-+-3-+-&-+-4-+-&-+- 1-+-&-+-2-+-&-+-3-+-&-+-4-+-&-+-
G|--------------------------------|------------4-3---------4-3-----|
D|--------------------------------|----------------6-3---------6-3-|
A|--------------------------------|2-1-----------------------------|
E|--------------------------------|----4-1-------------------------|

Verse
extra parts are missing - 2 bass parts, only first one tabbed
  1-+-&-+-2-+-&-+-3-+-&-+-4-+-&-+-
G|--------------------------------|
D|--------------------------------| x2
A|--------------------------------|
E|(1)-----------1-1-------------1-|


Pre-chorus
      1-+-&-+-2-+-&-+-3-+-&-+-4-+-&-+- 1-+-&-+-2-+-&-+-3-+-&-+-4-+-&-+-
G----|--------------------------------|--------------------------5-----|
D----|--------------------------------|--------------------------------|
A--1-|(hold)--------------------1-3-4-|--------------4-3-------------1-|
E----|----------------4---------------|--------------------------------|

  1-+-&-+-2-+-&-+- 1-+-&-+-2-+-&-+-3-+-&-+-4-+-&-+-
G|----------------|--------------------------------|
D|----------------|--------------------------------|
A|(hold)----------|1-------3-------3-------5-------|
E|----------------|--------------------------------|

  1-+-&-+-2-+-&-+-3-+-&-+-4-+-&-+-
G|--------------------------------|
D|------------------------2-------|
A|3-------5-------5---------------|
E|--------------------------------|


Chorus
Verse
Pre-chorus (2 bars + chorus part 1 2nd bar missing last half)
Verse
Pre-chorus
Break
Chorus Part 1 x many

===============================================================================